bakimliyiz
Sponsor Reklamlar
Geri git   Bakimliyiz.Com > MÜZİK DÜNYASI > Akorlar - Tablar - Notalar

Kadın Portalı Kayıt Ol İletişim Forumları Okundu Kabul Et
Alt 11-01-2009, 02:34   #1 (permalink)
 
Bkmlyz - ait Kullanıcı Resmi (Avatar)
 
Standart Teoman İstanbul'da Sonbahar Akorları

Am Dm
Mevsim rüzgarları nezaman eserse
Am G
O zaman hatırlarım çocukluk rüyalarım
Am
Şeytan uçurtmalarım.
Am Dm
Öper beni annem yanaklarımdan
Am G
Güzel bir rüyada sanki sevdiklerim
Am Em/C
Hayattalarken hala.

Dm Am )
Akşama doğru azalırsa yağmur )
Dm Am )
Kız kulesi ve adalar. )
Dm Am ) x2
Ah burda olsan çok güzel hala )
F D7# Am )
İstanbul'da sonbahar. )


SOLO
Dm Am Dm Am
e |------------|------------|------------|------|---------|
B |------------|------------|------------|------|---------|
G |------------|------------|------------|------|---------|
D |------------|-------7----|------------|----7-|-----7---|
A |----------6-|----8-----5-|----------6-|-5----|-6-5---5-|
E |-5--7--5----|-5----------|-5--7--5----|------|---------|

Am Dm
Her zaman kolay değil sevmeden sevişmek
Am G
Tanımak bir vücudu yavaşça öğrenmek
Am
Alışmak ve kaybetmek.
Am Dm
İstanbul bugün yorgun üzgün ve yaşlanmış
Am G
Biraz kilo almış ağlamış yine
Am Em/C
Rimelleri akıyor.

Dm Am )
Akşama doğru azalırsa yağmur )
Dm Am )
Kız kulesi ve adalar. )
Dm Am ) x2
Ah burda olsan çok güzel hala )
F D7# Am )
İstanbul'da sonbahar. )


SOLO
Dm Am Dm Am
e |------------|------------|------------|------|---------|
B |------------|------------|------------|------|---------|
G |------------|------------|------------|------|---------|
D |------------|-------7----|------------|----7-|-----7---|
A |----------6-|----8-----5-|----------6-|-5----|-6-5---5-|
E |-5--7--5----|-5----------|-5--7--5----|------|---------|


Bkmlyz isimli Üye şimdilik offline konumundadır  





Hızlı Cevap

Doğrulama Sorusu
Mesajınız:
Yazı şeklini sil
Kalın
Eğik yazı
Altı çizik

Grafik ekle
Alıntı yap [QUOTE]
 
Alanı Küçült
Alanı Büyült

Seçenekler
Stil


Teoman İstanbul'da Sonbahar Akorları

Teoman İstanbul'da Sonbahar Akorları konusu, MÜZİK DÜNYASI / Akorlar - Tablar - Notalar forumunda tartışılıyor.


Konu etiketleri: istanbulda sonbahar nota, istanbulda sonbahar akor, mevsim rüzgarları solo, teoman istanbulda sonbahar nota, teoman istanbulda sonbahar akor, teoman istanbulda sonbahar solo, teoman mevsim rüzgarları solo, teoman solo, istanbulda sonbahar solo, teoman sonbahar solo, istanbulda sonbahar notalar, teoman sonbahar akor, istanbulda sonbahar flüt notaları, istanbulda sonbahar melodika notaları, teoman istanbulda sonbahar melodika notaları,

Benzer Konular

Konu Konuyu Başlatan Forum Cevap Son Mesaj
Teoman Kumbaracıbaşı Biyografi-Teoman Kumbaracıbaşı Kimdir? elif Türkiye'den Biyografiler 0 09-07-2008 05:01
Teoman Biyografi-Teoman Kimdir elif Türkiye'den Biyografiler 0 26-06-2008 02:41

Üye olmadan soru sorabilirsiniz!

Bütün Zaman Ayarları WEZ +4 olarak düzenlenmiştir. Saat şuan 10:20 .


Powered by vBulletin® Version 3.8.7
Copyright ©2000 - 2017, Jelsoft Enterprises Ltd.
SEO by vBSEO 3.5.2 ©2010, Crawlability, Inc.
Web Stats